Marios + Stephanie

Σας Καλωσορίζουμε στο Forum μας...!
 
ΦόρουμΗμερολόγιοΣυχνές ΕρωτήσειςΑναζήτησηΕγγραφήΚατάλογος ΜελώνΟμάδες ΜελώνΣύνδεση

Μοιραστείτε | 
 

 Καπνός

Πήγαινε κάτω 
ΣυγγραφέαςΜήνυμα
webmaster
webmaster
webmaster
avatar

Αριθμός μηνυμάτων : 362
Registration date : 16/07/2007

ΔημοσίευσηΘέμα: Καπνός   Τετ Ιουλ 18, 2007 1:13 pm

Μιχάλης Χατζηγιάννης – Καπνός



Επιστροφή στην κορυφή Πήγαινε κάτω
Επισκόπηση του προφίλ των χρηστών http://www.trakis-electronics.forumotion.com
webmaster
webmaster
webmaster
avatar

Αριθμός μηνυμάτων : 362
Registration date : 16/07/2007

ΔημοσίευσηΘέμα: Απ: Καπνός   Σαβ Αυγ 18, 2007 12:54 am

Εισαγωγή:

Cm G#m
e--3---3-1---1-3--3-1---1-3--3-1---1-3-3-1---1--
b----1----------1----3-4---1----------1---3-4-3-
g-----------------------------------------------

G#7 G7
e-----------------------------2----2----2-----2-3-
b----3----3----3-----3.-4--3-4--3-4--3-4-3.-4.----
g-3-5--3-5--3-5-3.-5.-----------------------------

Cm Fm
Ποιο ζεστό φιλί δεν ένιωσα ξανά και με νικά μαζί σου ό,τι έζησα
G#7 G7 Cm
αγκαλιά κενή, σύμπτωση απλή που επέζησα
Λες είναι σκληρό με τόσο εγωισμό και με θυμό σ' εσένα ν' απευθύνομαι
αν σε πίστεψα, εγώ μονάχα εγώ ευθύνομαι

G# Fm Gm Cm
Τι να πω κι εγώ που όλα τα περίμενα, μα έγιναν αλλιώς
G# Fm Gm Cm
που άναβες φωτιές με όλα αυτά που μου 'ταζες, μα έμεινε ο καπνός

Εισαγωγή

Δες γυρίζω εδώ μετά από καιρό και σου ζητώ ακόμα μια συνάντηση
μα στα δύσκολα, δεν έχεις ούτε μια απάντηση

Τι να πω κι εγώ...

Solo

Cm Gm
e--------------------------------------------------
b--6(bendto8)-6-4-3-4-6/6(bendto8)/6-4-6-3/4/3-3--
g----------------5---5------------------------5---

Cm G#
e--------------------6------------
b---6-4-6(bendto8)----6(bendto8)-4
g---------------------------------

Τι να πω κι εγώ...

_________________


Work Best on Firefox!


Επιστροφή στην κορυφή Πήγαινε κάτω
Επισκόπηση του προφίλ των χρηστών http://www.trakis-electronics.forumotion.com
 
Καπνός
Επιστροφή στην κορυφή 
Σελίδα 1 από 1

Δικαιώματα σας στην κατηγορία αυτήΔεν μπορείτε να απαντήσετε στα Θέματα αυτής της Δ.Συζήτησης
Marios + Stephanie :: Music Videos & Lyrics! ! ! !(New) :: Mixalis Xatzigiannis-
Μετάβαση σε: